  0
SECTION
  2
HEADER
  9
$ACADVER
  1
AC1009
  9
$INSBASE
 10
0.0
 20
0.0
 30
0.0
  9
$EXTMIN
 10
0.0
 20
0.0
 30
0.0
  9
$EXTMAX
 10
0.0
 20
0.0
 30
0.0
  0
ENDSEC
  0
SECTION
  2
TABLES
  0
TABLE
  2
VPORT
 70
0
  0
ENDTAB
  0
TABLE
  2
LTYPE
 70
1
  0
LTYPE
  2
CONTINUOUS
 70
0
  3
Solid line
 72
65
 73
0
 40
0.0
  0
ENDTAB
  0
TABLE
  2
LAYER
 70
1
  0
LAYER
  2
0
 70
64
 62
7
  6
continuous
  0
ENDTAB
  0
TABLE
  2
STYLE
 70
1
  0
STYLE
  2
STANDARD
 70
0
 40
0
 41
1.0
 50
0.0
 71
0
 42
1
 3
ARIAL.TTF
 4

  0
ENDTAB
  0
TABLE
  2
VIEW
 70
0
  0
ENDTAB
  0
ENDSEC
  0
SECTION
  2
BLOCKS
  0
BLOCK
  8
0
  2
SHAPE2DVIEW
 70
0
 10
0.0
 20
0.0
 30
0.0
  3
SHAPE2DVIEW
  0
LINE
  8
0
 62
0
 10
-28.9913780287
 20
28.9913780286
 30
0.0
 11
-202.232539419
 21
202.232539419
 31
0.0
  0
LINE
  8
0
 62
0
 10
-202.232539419
 20
202.232539419
 30
0.0
 11
-202.232539419
 21
300.0
 31
0.0
  0
LINE
  8
0
 62
0
 10
-202.232539419
 20
300.0
 30
0.0
 11
-375.0
 21
300.0
 31
0.0
  0
LINE
  8
0
 62
0
 10
-375.0
 20
300.0
 30
0.0
 11
-375.0
 21
-300.0
 31
0.0
  0
LINE
  8
0
 62
0
 10
-375.0
 20
-300.0
 30
0.0
 11
-202.232539419
 21
-300.0
 31
0.0
  0
LINE
  8
0
 62
0
 10
-202.232539419
 20
-300.0
 30
0.0
 11
-202.232539419
 21
-202.232539419
 31
0.0
  0
LINE
  8
0
 62
0
 10
-202.232539419
 20
-202.232539419
 30
0.0
 11
-28.9913780287
 21
-28.9913780286
 31
0.0
  0
ARC
  8
0
 62
0
 10
0.0
 20
0.0
 30
0.0
 40
41.0
 50
135.0
 51
-135.0
  0
CIRCLE
  8
0
 62
0
 10
-337.5
 20
187.5
 30
0.0
 40
7.5
  0
CIRCLE
  8
0
 62
0
 10
-337.5
 20
112.5
 30
0.0
 40
7.5
  0
CIRCLE
  8
0
 62
0
 10
-337.5
 20
-112.5
 30
0.0
 40
7.5
  0
CIRCLE
  8
0
 62
0
 10
-337.5
 20
-187.5
 30
0.0
 40
7.5
  0
CIRCLE
  8
0
 62
0
 10
-337.5
 20
37.5
 30
0.0
 40
7.5
  0
CIRCLE
  8
0
 62
0
 10
-337.5
 20
-37.5
 30
0.0
 40
7.5
  0
CIRCLE
  8
0
 62
0
 10
-337.5
 20
262.5
 30
0.0
 40
7.5
  0
CIRCLE
  8
0
 62
0
 10
-337.5
 20
-262.5
 30
0.0
 40
7.5
  0
CIRCLE
  8
0
 62
0
 10
-247.777944466
 20
-165.55992944
 30
0.0
 40
2.5
  0
CIRCLE
  8
0
 62
0
 10
-247.777944464
 20
165.559929443
 30
0.0
 40
2.5
  0
CIRCLE
  8
0
 62
0
 10
-292.27401356
 20
-58.1369159608
 30
0.0
 40
2.5
  0
CIRCLE
  8
0
 62
0
 10
-292.27401356
 20
58.1369159608
 30
0.0
 40
2.5
  0
ENDBLK
  0
ENDSEC
  0
SECTION
  2
ENTITIES
  0
INSERT
  2
SHAPE2DVIEW
  8
0
 62
0
 10
0.0
 20
0.0
 30
0.0
  0
ENDSEC
  0
EOF
