  0
SECTION
  2
HEADER
  9
$ACADVER
  1
AC1009
  9
$INSBASE
 10
0.0
 20
0.0
 30
0.0
  9
$EXTMIN
 10
0.0
 20
0.0
 30
0.0
  9
$EXTMAX
 10
0.0
 20
0.0
 30
0.0
  0
ENDSEC
  0
SECTION
  2
TABLES
  0
TABLE
  2
VPORT
 70
0
  0
ENDTAB
  0
TABLE
  2
LTYPE
 70
1
  0
LTYPE
  2
CONTINUOUS
 70
0
  3
Solid line
 72
65
 73
0
 40
0.0
  0
ENDTAB
  0
TABLE
  2
LAYER
 70
1
  0
LAYER
  2
0
 70
64
 62
7
  6
continuous
  0
ENDTAB
  0
TABLE
  2
STYLE
 70
1
  0
STYLE
  2
STANDARD
 70
0
 40
0
 41
1.0
 50
0.0
 71
0
 42
1
 3
ARIAL.TTF
 4

  0
ENDTAB
  0
TABLE
  2
VIEW
 70
0
  0
ENDTAB
  0
ENDSEC
  0
SECTION
  2
BLOCKS
  0
BLOCK
  8
0
  2
CUT001
 70
0
 10
0.0
 20
0.0
 30
0.0
  3
CUT001
  0
LINE
  8
0
 62
0
 10
40.0
 20
0.0
 30
0.0
 11
285.0
 21
-6.98048675514e-14
 31
0.0
  0
ARC
  8
0
 62
0
 10
-8.881784197e-15
 20
-8.881784197e-15
 30
0.0
 40
40.0
 50
0.0
 51
90.0
  0
ARC
  8
0
 62
0
 10
7.1054273576e-15
 20
-5.3290705182e-14
 30
0.0
 40
285.0
 50
90.0
 51
0.0
  0
LINE
  8
0
 62
0
 10
0.0
 20
40.0
 30
0.0
 11
0.0
 21
285.0
 31
0.0
  0
CIRCLE
  8
0
 62
0
 10
0.0
 20
-270.0
 30
0.0
 40
1.5
  0
CIRCLE
  8
0
 62
0
 10
0.0
 20
-150.0
 30
0.0
 40
1.5
  0
CIRCLE
  8
0
 62
0
 10
-17.6776695297
 20
-17.6776695297
 30
0.0
 40
1.5
  0
CIRCLE
  8
0
 62
0
 10
-190.91883092
 20
-190.91883092
 30
0.0
 40
1.5
  0
CIRCLE
  8
0
 62
0
 10
-103.324526739
 20
-249.447473778
 30
0.0
 40
1.5
  0
CIRCLE
  8
0
 62
0
 10
-106.066017178
 20
-106.066017178
 30
0.0
 40
1.5
  0
CIRCLE
  8
0
 62
0
 10
103.324526739
 20
-249.447473778
 30
0.0
 40
1.5
  0
CIRCLE
  8
0
 62
0
 10
20.0
 20
-15.0
 30
0.0
 40
1.5
  0
CIRCLE
  8
0
 62
0
 10
106.066017178
 20
-106.066017178
 30
0.0
 40
1.5
  0
ARC
  8
0
 62
0
 10
1.27675647832e-15
 20
-2.55351295664e-15
 30
0.0
 40
10.0
 50
62.4576031237
 51
0.0
  0
LINE
  8
0
 62
0
 10
4.62404843806
 20
8.86668912518
 30
0.0
 11
7.07106781187
 21
11.313708499
 31
0.0
  0
ARC
  8
0
 62
0
 10
5.3290705182e-14
 20
1.05471187339e-14
 30
0.0
 40
10.0
 50
-0.0
 51
27.5423968763
  0
LINE
  8
0
 62
0
 10
11.313708499
 20
7.07106781187
 30
0.0
 11
7.07106781187
 21
11.313708499
 31
0.0
  0
LINE
  8
0
 62
0
 10
8.86668912518
 20
4.62404843806
 30
0.0
 11
11.313708499
 21
7.07106781187
 31
0.0
  0
CIRCLE
  8
0
 62
0
 10
-150.0
 20
0.0
 30
0.0
 40
1.5
  0
CIRCLE
  8
0
 62
0
 10
-15.0
 20
149.248115566
 30
0.0
 40
1.5
  0
CIRCLE
  8
0
 62
0
 10
-15.0
 20
20.0
 30
0.0
 40
1.5
  0
CIRCLE
  8
0
 62
0
 10
17.6776695297
 20
17.6776695297
 30
0.0
 40
1.5
  0
CIRCLE
  8
0
 62
0
 10
-106.066017178
 20
106.066017178
 30
0.0
 40
1.5
  0
CIRCLE
  8
0
 62
0
 10
190.91883092
 20
-190.91883092
 30
0.0
 40
1.5
  0
CIRCLE
  8
0
 62
0
 10
149.248115566
 20
-15.0
 30
0.0
 40
1.5
  0
CIRCLE
  8
0
 62
0
 10
-15.0
 20
269.583011334
 30
0.0
 40
1.5
  0
CIRCLE
  8
0
 62
0
 10
-103.324526739
 20
249.447473778
 30
0.0
 40
1.5
  0
CIRCLE
  8
0
 62
0
 10
-190.91883092
 20
190.91883092
 30
0.0
 40
1.5
  0
CIRCLE
  8
0
 62
0
 10
-249.447473778
 20
-103.324526739
 30
0.0
 40
1.5
  0
CIRCLE
  8
0
 62
0
 10
-249.447473778
 20
103.324526739
 30
0.0
 40
1.5
  0
CIRCLE
  8
0
 62
0
 10
249.447473778
 20
-103.324526739
 30
0.0
 40
1.5
  0
CIRCLE
  8
0
 62
0
 10
269.583011334
 20
-15.0
 30
0.0
 40
1.5
  0
CIRCLE
  8
0
 62
0
 10
-270.0
 20
0.0
 30
0.0
 40
1.5
  0
ENDBLK
  0
ENDSEC
  0
SECTION
  2
ENTITIES
  0
INSERT
  2
CUT001
  8
0
 62
0
 10
0.0
 20
0.0
 30
0.0
  0
ENDSEC
  0
EOF
